Classical Music Tabs for Classical Guitar

Keyboard Suite, Courante

Composer: George Frideric Handel

Status on the Original Works: Public Domain

Type: For Classical Guitar

Refer to the Video

Here, scores of technically difficult music are exhibited.

First of all, what does “technically difficult” mean? Even if there are a large amount of notes in a score, it is not always difficult. “Difficulty” in classical guitar is determined by how much the music is incompatible with guitar. Even if you hear a music and think, "It's a simple music. Let's play!" you may often find difficulty when you actually play it.

If you succeed in playing throughout a difficult music, you will have a sense of fulfillment and accomplishment. It also leads to self-confidence as a guitarist.




E|--------------10--|--10-------8---------|-----------7----------|
B|------------------|--------------12-10--|--8--7--8-----10------|
G|------------------|--------0------------|------------------12--|
D|------------------|---------------------|----------------------|
A|------------------|--------------9------|--7-------------------|
D|------------------|---5-----------------|---------------9------|

 


  
|-----------------8--10-|-7---------7--8--10-|-12------12------12----|
|-10------10--12--------|----10--8-----------|-----------------------|
|-----12----------------|-0------------------|-----12------12------12|
|-----------------0-----|--------------------|-----------------------|
|-----------------------|--------------------|-----------------------|
|-10--------------------|--------------------|---------10------10----|

 

|------------------------|-10------10------10-----|-------0----------|
|-10----------10--12--13-|------------------------|-8--7------------0|
|-----12--11-------------|-----11------11------11-|----------0------0|
|------------------------|------------------------|--------------7---|
|--9---------------------|------------------------|-7----------------|
|------------------------|----------9-------9-----|------------------|

 

|-------0--------5-|-2(3)-------0--------|----------------------|
|----0-----7--8----|---------------3--1--|--0--1----------------|
|-5--7--5----------|---------------------|--0--2--2(4)-------0--|
|-7----------------|-0-------0-----------|--------0-------0-----|
|------------------|---------------------|-----3----------------|
|------------------|---------------------|----------------------|


 
|--------------0--2--|--3--------3--5--3--|--2--0--2--3--5--2--|
|-----------3--------|-----0--2-----------|--------------------|
|--0-----------------|--------2-----------|--------------------|
|--------------------|--2-----------------|--0-----------0-----|
|-----0--2-----------|--------------4-----|--------------------|
|--5-----------------|--------------------|--------------------|


|--7--5--3--2--0-----|-----------0--2--3--|--5-----5-----5-----|
|-----------------3--|--2--0--------------|-----2-----2-----2--|
|--0-----------------|--------2-----------|--------------------|
|--------------------|--------------------|--------------------|
|--------------------|--0-----------------|--------------------|
|--------------------|--------------------|--------4-----4-----|


|--------------0--2--|--3-----3-----3-----|-----5--3--5--0--5--|
|--3--2--0--3--------|-----0-----0-----0--|--2-----------------|
|--------------------|--------------------|--2-----------------|
|--------------------|--------------------|--------------------|
|--2-----------------|--------------------|--0-----------------|
|--------------------|--------2-----2-----|--------------------|


|--2--5--0--5-----5--|-----5-----5--0--5--|--2---5--0--5-----5--|
|--3-----2-----3-----|--2-----3-----2-----|--3------2-----3-----|
|--------------4-----|--2-----4-----------|---------------4-----|
|--------------------|--------------------|---------------------|
|--------------------|--------------------|---------------------|
|--------------------|--------------------|---------------------|

                              tr              
|-----5-----5-----5--|--3--2--0(2)----------|--------------------|
|--2-----0-----------|-------------------3--|--3--2--0-----------|
|--2-----0-----2-----|--0-------------2-----|-----------2--0-----|
|--------------4-----|----------------------|--0--------------4--|
|--------------------|--------0-------------|--------------------|
|--------------------|----------------------|--------------------|


|--------------------|-----------5--3--5--|--2--5--0--5-----5--|
|--0-----------------|--------------------|--3-----2-----3-----|
|-----2--0-----------|--------------------|--------------4-----|
|-----------4--2--0--|--------------------|--------------------|
|--------------------|--4--2--0-----------|--------------------|
|--5-----------------|--------------------|--------------------|


|-----5-----5--0--5--|--2--5--0--5-----5--|-----5-----5--0--5--|
|--2-----0-----2-----|--3-----2-----3-----|--2-----3-----2-----|
|--2-----7-----------|--------------4-----|--2-----4-----------|
|--------------------|--------------------|--------------------|
|--------------------|--------------------|--------------------|
|--------------------|--------------------|--------------------|
 

                                                   tr                 
|--2--5--0--5-----5--|-----5-----5-----5--|--3--2--0(2)----------|
|--3-----2-----3-----|--2-----0-----------|-------------------3--|
|--------------4-----|--2-----0-----2-----|--0-----2-------------|
|--------------------|--------------4-----|----------------------|
|--------------------|--------------------|----------------0-----|
|--------------------|--------------------|----------------------|


|--------------------|--------------------|----------------||
|--3-----3-----------|--3-----------------|--3-------------||
|-----2-----2-----2--|--------------------|--2------------*||
|--0-----------4-----|--0-----0-----------|--4------------*||
|--------------------|-----0-----0-----0--|----------------||
|--------------------|--------------4-----|--0-------------||

 

|-5-|--5-------3--2--0--|-----------2--0-----|--0-----0--2--3--5--|
|---|-------------------|--3--2--3--------3--|-----3--------------|
|---|-------------------|--------------------|--------------------|
|---|-------0-----------|--------------------|--------------------|
|---|-------------4-----|--2-----------------|--------0-----------|
|---|--0----------------|--------------4-----|--5-----------------|

 

|--2--0-----2--3--5--|--7-----7-----7-----|--0--------0--2--3--|
|--------3-----------|-----3-----3-----3--|-----3--2-----------|
|--------------------|--------0-----0-----|--------------------|
|--0-----------------|--------------------|--------------------|
|--------------------|--------------------|--4-----------------|
|--------------------|--------------------|--------------------|

 

|-5-----5-----5-----|--------------0--2--|--3-----3-----3-----|
|----2-----2-----2--|--3--2--0--3--------|-----0-----0-----0--|
|-------------------|--------------------|--------------------|
|-------4-----4-----|--------------------|--------2-----2-----|
|-------------------|--2-----------------|--------------------|
|-------------------|--------------------|--------------------|

 

|-----------0--------|--5--7--5--3--2--0--|-----------------------|
|--------------7--8--|--------------------|--4--2--0--12--10--12--|
|--6--4--------------|--------------------|--4--------------------|
|--------7-----------|--------4-----4-----|-----------------------|
|--0-----------------|--------------------|-----------------------|
|--------------------|--------------------|-----------------------|
 


|-----7-----7-----7--|-----7-----7-----7--|-----7-----7-----7--|
|--8-----7-----5-----|--4-----5-----7-----|--8-----7-----5-----|
|--9-----8-----6-----|--4-----5-----7-----|--9-----8-----6-----|
|--------------------|--------------------|--------------------|
|--------------------|--------------------|--------------------|
|--------------------|--------------------|--------------------|


                              tr                                 
|-----7-----7-----7--|--5--3--2(3)----------|--0--2--3--2--------|
|--4-----------------|--------0-------0--5--|--------------5--3--|
|--4-----6-----4-----|--2-------------------|--------------------|
|--------7-----5-----|----------------------|--2-----------------|
|--------------------|----------------------|--------------------|
|--------------------|----------------------|--------------------|

 

|--------0-----------|--------------------|--------------------|
|--2--3-----3--1--0--|-----------7--5--7--|-----7-----7-----7--|
|--------------------|--3-----------------|--7-----6-----4-----|
|--------------------|-----6--4-----------|--9-----8-----6-----|
|--------------------|--------------------|--------------------|
|--------2-----2-----|--4-----------------|--------------------|


   
|--------------------|--------------------|--------------------|
|-----7-----7-----7--|--- -7-----7-----7--|-----7-----7-----7--|
|--------4-----6-----|--7-----6-----4-----|--------------------|
|--8-----6-----8-----|--9-----8-----6-----|--8-----6-----4-----|
|--9-----------------|--------------------|--9-----7-----5-----|
|--------------------|--------------------|--------------------|
 

         tr                                                      
|--0-------------------|--------------------|--------0-----------|
|-----3--2(3)-------0--|--0--2--3--2--0-----|-----0-----3--1--0--|
|----------------------|-----------------2--|--1-----1-----1-----|
|--2-----4-------4-----|--------------------|--------2-----2-----|
|----------------------|--2-----------------|--------------------|
|----------------------|--------------------|--------------------|

 

|--------------------|--------------------|--------------0--2--|
|--1-----1-----------|--------3--1--0-----|--0--------3--------|
|-----2-----4--2--0--|-----2-----------2--|-----2--0-----------|
|--------------------|--4-----------------|--------------------|
|--0-----------------|--------------------|--------------------|
|--------------------|--------4-----4-----|--5-----------------|

 

|--3-----3-----3-----|--0--------0--2--3--|--5--0--5--0--5--0--|
|-----3--0--3--0--3--|-----3--1-----------|--------2-----2-----|
|--------0-----0-----|--------------------|--------2-----2-----|
|--------------------|--------------------|--------------------|
|--------------------|--3-----------------|--------------------|
|--------------------|--------------------|--------------------|

 

|--2--0----------10--|--10-------8--7------|-----------7----------|
|--------3-----------|-----------------10--|--8--7--8-----10------|
|--------------------|--------0------------|------------------12--|
|--0----------0------|---------------------|----------------------|
|--------------------|--------------9------|--7-------------------|
|--------0-----------|---5-----------------|---------------9------|


 
|-------------7--8--10-|-7---------7--8--10-|-12------12------12-----|
|-10------10-----------|----10--8-----------|------------------------|
|-----12---------------|-0------------------|-----12------12------12-|
|----------------0-----|--------------------|------------------------|
|----------------------|--------------------|------------------------|
|-10-------------------|--------------------|---------10------10-----|


  
|------------------------|-10------10------10-----|-------0----------|
|-10----------10--12--13-|------------------------|-8--7-----------0-|
|-----12--11-------------|-----11------11------11-|----------0-----0-|
|------------------------|------------------------|-------------7----|
|--9---------------------|------------------------|-7----------------|
|------------------------|----------9-------9-----|------------------|
     

                       tr                                       
|--------0--------5--|--2(3)-------0--------|--------------------|
|-----0-----7--8-----|----------------3--1--|--0--3--1--0--------|
|--5--7--5-----------|----------------------|--0--4--2--0--2--0--|
|--7-----------------|--0-------0-----------|--------------------|
|--------------------|----------------------|--------------------|
|--------------------|----------------------|--------------------|

 

|--------------------|--------------------|--------------------|
|-----------3--1--3--|--0--3-----3-----3--|-----3-----3-----3--|
|--------------------|--0-----2-----0-----|--------0-----2-----|
|--4--2--0-----------|--------4-----2-----|--4-----2-----4-----|
|--------------------|--------------------|--5-----------------|
|--------------------|--------------------|--------------------|


                                                  tr            
|--------------------|--------------------|----------------------|
|--0--3-----3-----3--|-----3-----3-----3--|--1--0----------------|
|--0-----2-----0-----|--------------------|--------2(4)-------0--|
|--------4-----2-----|--4-----2-----0-----|--------0-------0-----|
|--------------------|--5-----3-----2-----|--3-------------------|
|--------------------|--------------------|----------------------|

 

|--------------------|--0-----------------|-----------10--8--10--|
|--------------------|-----3--1--0--------|----------------------|
|--0-----------------|--------------2--0--|----------------------|
|-----4--2--0--------|--------------------|--4--2--0-------------|
|--------------3--2--|--3-----------------|----------------------|
|--5-----------------|--------------------|--0-------------------|


  
|-7--10------10-----10-|----10-----10------10-|-----10------10-----10|
|-8------10------8-----|-7------8------10-----|-12------10------8----|
|--------11------9-----|-7------9------11-----|-12------11------9----|
|----------------------|----------------------|----------------------|
|----------------------|----------------------|----------------------|
|----------------------|----------------------|----------------------|


                                  tr                                 
|----10-----10-----10-|--8---7--------------3-|-3-----3-----------|
|-7-------------------|---------10(12)--------|----3-----3--0--3--|
|-7------9------7-----|-----------------------|-0-----------------|
|-------10------9-----|-10------12------------|-------------------|
|---------------------|-------------------3---|-------------------|
|---------------------|-----------------------|-------------------|


    
|--------------------|--------||
|--------------------|--------||
|--0-----0-----------|--------||
|-----0-----0-----0--|--------||
|--------------2-----|--------||
|--------------------|--5-----||


Categories of Classical/Electric Guitar Tabs