Classical Music Tabs for Classical Guitar

Ciacona (Chaconne)

Composer:  Sylvius Leopold Weiss

Status on the Original Works: Public Domain

Type: For Classical Guitar

Refer to the Video

Here, classical guitar masterpieces are exhibited for the people, who are not satisfied with music for beginners. Features of the music in this category are as follows:

  • It is difficult to copy with ears because the structure of the music is complex and it is hard to think of fitting into a framework of a simple music theory.
  • It is somewhat difficult because their tonality is not always suitable for guitar (you cannot play them only based on open codes).
  • Maintenance of tempo and rhythm is likely to be hindered by technical difficulties.



|----------------------|----------------------|----------------------|
|0-------0-------0-----|0---------------0-----|0---------------------|
|0-------0-------0-----|----------------------|----------------2-----|
|--------2-------2-----|4---------------4-----|2---------------2-----|
|----------------------|5-------5-------5-----|3-------3-------3-----|
|0---------------------|----------------------|----------------------|


|----------------------|----------------------|----------------------|
|----------------------|0---------------0-----|--------0-------------|
|4---------------4-----|----------------------|2---------------2-----|
|4---------------4-----|2-------2-------2-----|2-------2-------1-----|
|6---------------6-----|----------------------|0---------------------|
|7-------7-------5-----|3---------------4-----|--------3-------2-----|


|---------------------|--------0---2---3---0---|2-----------2---7---3|
|---------------------|----0-------------------|--------0------------|
|0--------------------|------------------------|---------------------|
|2-------4-------1----|2-----------------------|0---4-----------0----|
|--------7-------2----|------------------------|---------------------|
|0--------------------|0-----------------------|---------------------|


|0-----------5---2---0|----2-------------------|0--------------------|
|----0----------------|4-------0---0---2---4---|----0-------0-------3|
|--------2------------|------------------------|--------0------------|
|---------------------|------------------------|----------------2----|
|3---------------3----|2---------------0-------|---------------------|
|---------------------|------------------------|3---------------4----|


|----------------------|----0------------------|---------------------|
|1-------0-----------0-|-----------------------|--------0-------0----|
|----------------2-----|0-------------------0--|--------0-------0----|
|----4-------2-------1-|2-------4--------------|2-------2-------2----|
|0---------------------|--------2-------2------|2--------------------|
|--------3-------2-----|0----------------------|0--------------------|


|---------------------|----------------------|---------------------|
|0---------------0----|0---------------------|----------------0----|
|---------------------|----------------2-----|4--------------------|
|4---------------4----|2---------------2-----|4---------------1----|
|5---------------5----|3---------------3-----|6---------------0----|
|---------------------|----------------------|7-------7------------|


|---------------------|--------0------------|0-------------------0-|
|0---------------0----|--------0-------4----|--------4-------------|
|0--------------------|2---------------2----|0---------------------|
|2---------------2----|2--------------------|----------------------|
|---------------------|0--------------------|--------2-------2-----|
|3-------3-------4----|--------3-------2----|0---------------------|


------------------3-5-3|--3-2-0---0-------2-0-2|0---------0-2-3-5-3-2-0
--------0--------------|--------3---3-1-0------|--3-1-0----------------
------0---2-0----------|-----------------------|--------2--------------
--2-4---------4-2------|0---------------0------|-----------------------
-----------------------|-----------------------|3---------------3------
0----------------------|-----------------------|-----------------------


--2-0-2---2-0-2--------|7-8-7-5-3-5-3-2-0------|--0-2-3-5-0---0---5--5
4-------4-------0-4-2-0|------------------3-1-0|1-----------1-------0-
-----------------------|0----------------------|----------------2-----
-----------------------|-----------------------|----------------------
2---------------0------|-----------------------|0---------------------
-----------------------|-----------------------|--------------------2-


|3---2-0-2----------|0-------3----------|--------2---------
|--------5-------4--|----------------0--|0---------------0-
|-------------------|0---------------0--|------------------
|-------------------|----------------2--|4---------------4-
|--------2-------2--|-------------------|5---------------5-
|0------------------|0------------------|------------------


|--------0---------|-------------------|--------0---------
|0-----------------|--------4-------0--|----------------0-
|----------------2-|4------------------|------------------
|2---------------2-|4---------------4--|--2-------------2-
|3---------------3-|6---------------6--|------------------
|------------------|7---------------5--|3---------------4-


-------------------|---------------------|-----------------------
--------0----------|--------0-----------0|--0---0---0---0---0---0
2---------------2--|0---2----------------|----2---0---2---0---2--
2-------2-------1--|2-----------4---1----|----------------2------
0------------------|--------2-------2----|-----------------------
--------3-------2--|0--------------------|0----------------------


-----------------------|-----------------------|-----------------------
--0---0---0---0---0---0|--0-1-0---0------------|--0---0---0---0---0---0
----2-------2-------2--|--------2---2-0---0----|-----------------------
4-------4-------4------|2---------------4---4-2|1---4---1---4---1---4--
5---------------5------|3----------------------|2---------------0------
-----------------------|-----------------------|-----------------------


----0-1-0---0-----------|-----------------------|---------------------
--0-------3---3-1-3-1-0-|1-------0-------------0|---------------------
------------------------|----0---------0-2------|0--------------------
2-----------------------|--4---4---2-4-----2-1--|----4-2-1-----------2
------------------------|0----------------------|--------2-------2----
3-----------------------|--------3-------2------|0--------------------


---------------------|---------------------|--------------------
---------------------|----------------0----|0-------------------
--------0-------0----|---------------------|----------------2---
2-------2-------2----|4-------4-------4----|2-------2-------2---
2--------------------|5-------5-------5----|3-------3-------3---
0-------0------------|---------------------|--------------------


|----------------------|----------------------|--------------------
|0---------------------|----------------------|----------------4---
|----------------------|0-------0-------------|2-------2-------2---
|1-------4-------4-----|2-------2-------2-----|2-------2-----------
|2-------6-------6-----|----------------2-----|0-------------------
|--------7-------5-----|3---------------4-----|--------3-------2---


|0-------------------0-|----------0-0-0---3-3-3|--2-2-2-----------7-7-7
|--------4-------------|--0-0-0----------------|----------0-0-0--------
|0---------------------|-----------------------|-----------------------
|----------------------|----------------2------|0-------0-------0------
|--------2-------2-----|-----------------------|-----------------------
|0---------------------|0-------0--------------|-----------------------


--0-0-0-----------5-5-5|-----------------------|--0-0-0----------------
-----------------------|--4-4-4---0-0-0---4-4-4|----------3-3-3---3-3-3
----------2-2-2--------|-----------------------|-----------------------
-----------------------|-----------------------|-----------------------
3-------3-------3------|2-------2-------0------|-----------------------
-----------------------|-----------------------|3-------3-------4------


|------------------------|----------------------|0-------------------
|--1-1-----0-0-----------|--------------------4-|--------0-------0---
|------------------2-2---|--0---0---------------|----------------0---
|------4-------2-------1-|----2-----4-2-4-------|----------------2---
|0-----------------------|--------2-------2-----|--------------------
|--------3-------2-------|0---------------------|0-------------------


|--------7---5---3---2--|0-------0-------0-----|--------2-----------
|0----------------------|----------------1-----|4---------------0---
|-----------------------|--------2-------------|4-------------------
|4---------------0------|----------------------|--------------------
|5----------------------|3---------------0-----|2---------------0---
|-----------------------|----------------------|--------------------


|----------------------|----------------------|0-------------------0
|--0-------------0-----|--------0-------4-----|0-------4------------
|----------------------|2---------------2-----|0--------------------
|----------------2-----|2---------------------|---------------------
|----------------------|0---------------------|--------2-------2----
|3---------------4-----|--------3-------2-----|0--------------------


|------------0---3---7--|--------------------7-|----0---------------2
|--------0--------------|----------------7-----|--------1---0--------
|----0------------------|--------4---7---------|----------------2----
|-----------------------|0---4-----------------|---------------------
|-----------------------|----------------------|3--------------------
|0----------------------|----------------------|---------------------


----------------7---11-|12------0---3---7---10-|8-----0-7-----0-5------
------------7----------|----0------------------|------------0-------0-4
--------8--------------|0----------------------|----5---0--------------
----9------------------|--------------------6--|7---------------4------
--------------------9--|-----------------------|-----------------------
7----------------------|-----------------------|-----------------------


|0-2-3-0-2-----------0-2-|3---------7-5-7-------|----------7-5-7------
|0-----------------------|0---------------0-----|----0-----------0----
|------------------------|----------------------|---------------------
|2-----------------------|2-------4-------------|0-------0-----------0
|--------2-------2-------|--------------------7-|---------------------
|------------------------|0---------------------|---------------------


----------5-3-5-------|--7-5-7-----------7-5-7|-----------------------
----------------------|--------0--------------|0---0---0--------------
----2-----------2-----|-----------------------|------------2---0------
----------------------|-----------------------|--------------------4-2
3-------3-----------3-|-----------------------|-----------------------
----------------------|7-----------7---5------|3-------3--------------


|-----------------------|---------------------|--------7---3-5-2---0-2
|1-------0--------------|---------------------|-----------------------
|----------------2---0--|3---------------4----|----5------------------
|2-------2-------1---2--|2-------4-------4----|-----------------------
|0----------------------|4-------7-------6----|-----------------------
|--------3-------2---0--|----------------7----|0----------------------


|--------7---5-7-3---2-3|----0---5---3-5-2---0-2|-------7---5-7--------
|----7------------------|-----------------------|----4----------4---2-4
|-----------------------|-----------------------|4---------------------
|0----------------------|-----------------------|----------------------
|-----------------------|3---------------0------|---------------0------
|-----------------------|-----------------------|----------------------


--------7---5-7--------|--------5---3-5-2---0-2|--------3-2-3-5-2-0-2-3
----0-----------3---1-3|----1------------------|----0------------------
-----------------------|-----------------------|-----------------------
-----------------------|-----------------------|-----------------------
-----------------------|0----------------------|2----------------------
3----------------------|-----------------------|-----------------------


|------------------------|---------------------|-------------------|
|--------0-------0-------|0-------0-------0----|1-------1-------1--|
|--------0-------0-------|--------0------------|-------------------|
|--------2-------2-------|4---------------0----|2-------2-------4--|
|------------------------|5-------2------------|3---------------0--|
|0-----------------------|----------------3----|-------------------|


|---------------------|0-------0-------0----|0-------0-------2----|
|0-------0-------4----|0---------------0----|1-------0------------|
|----------------4----|--------0------------|----------------2---4|
|4-------4-------4----|---------------------|---------------------|
|2-------2-------0----|---------------------|0--------------------|
|---------------------|3-------0-------3----|--------3-------2----|


|----------------------|--7-5-7-3--------3-2-3-|--7-5-7----------2-0-2
|0---------------------|-----------------------|--------7--------------
|----2-0-------------0-|-----------------------|----------------------
|--------4-------------|---------------2-------|0---------------0-----
|--------2-------2-----|-----------------------|----------------------
|0---------------------|0----------------------|----------------------


|--5-3-5-0---------2-0-2-|--7-5-7--------7-5-7-|--------7-5-7------|
|------------------------|--------0------------|0-------------0----|
|------------------------|---------------------|-------------------|
|------------------------|---------------------|-------------------|
|3---------------3-------|----------------0----|-------------------|
|------------------------|7-----------7--------|3-----------------3|


|---------------------|---------------------|--------------------|
|--------0------------|----0----------------|0-------0-------0---|
|2---------------2----|0-------4-------4----|0-------0-------0---|
|2-------2-------1----|2-------4-------4----|--------2-------2---|
|0--------------------|--------7-------6----|--------------------|
|--------3-------2----|0-------7-------7----|0-------------------|


|---------------------|----------------------|---------------------|
|0---------------0----|---0------------0-----|----------------0----|
|---------------------|----------------------|4--------------------|
|4---------------4----|--2-------------2-----|4---------------4----|
|5-------5-------5----|-3------3-------3-----|6---------------6----|
|---------------------|----------------------|7-------7-------5----|


|---------------------|-----------------------|----0---------------0|
|0---------------0----|--------0--------------|--------4------------|
|---------------------|2---------------2------|0--------------------|
|2-------2-------2----|2-------2-------1------|2-------4------------|
|---------------------|0----------------------|--------2-------2----|
|3---------------4----|--------3-------2------|0--------------------|


|0----------------------||
|0----------------------||
|0----------------------||
|2----------------------||
|2----------------------||
|0----------------------||


Categories of Classical/Electric Guitar Tabs