Classical Music Tabs for Classical Guitar

Rosita

Composer:  Francisco Tarrega

Status on the Original Works: Public Domain

Type: For Classical Guitar

Refer to the Video

Here, classical guitar masterpieces are exhibited for the people, who are not satisfied with music for beginners. Features of the music in this category are as follows:

  • It is difficult to copy with ears because the structure of the music is complex and it is hard to think of fitting into a framework of a simple music theory.
  • It is somewhat difficult because their tonality is not always suitable for guitar (you cannot play them only based on open codes).
  • Maintenance of tempo and rhythm is likely to be hindered by technical difficulties.



E-----2s5--||---5-----5-----|--5-------------9--10--|
B----------||------7-----7--|-----8--10--12---------|
G----------||*-----7-----7--|-----6-----------------|
D----------||*--0-----------|-----------------------|
A----------||---------0-----|--7--------------------|
D----------||---------------|-----------------------|


E---9h12--7h10--5h9--------|--------------|--2s5-----5-----|
B--------------------8s12--|--12--10--10--|-------7-----7--|
G--------------------------|------11--11--|-------7-----6--|
D--------------------------|----------12--|----0-----------|
A---0----------------------|--------------|----------6-----|
D--------------------------|--0-----------|----------------|


E---5----------------9--|--14p12--0--2--4--|--5------------||
B------5---------10-----|---------------3--|--5------------||
G------6------9---------|---------------4--|--6-----------*||
D---------11------------|---------------2--|--------------*||
A---7-------------------|------------------|--0--<12>------||
D-----------------------|------------2-----|---------------||


E---5-------------||----------------------------|
B---5-------------||------------------7--8--10--|
G---6-------------||*--------6--7--9------------|
D------6s7--------||*--7--9---------------------|
A---0-------------||---0-----------0------------|
D------6s7--------||----------------------------|


E----------------7s10--|--10--9--9--9s12--|--12--10--10--------|
B---12--10--10---------|------8--8--------|------7---7---------|
G-------11--11---------|------9--9--------|------7---7---------|
D-------12--12---------|------------------|--------------------|
A----------------------|--7---------------|--9-----------------|
D---0------------------|------------------|--------------------|


E---9p7--6--7--12p10--9------|----------------14p10--|
B---0--------------------12--|--9s12--10--10---------|
G---0----------0-------------|--------11--11---------|
D----------------------------|--------12--12---------|
A----------------------------|--0--------------------|
D----------------------------|-----------------------|


E-------10------------<12>--|--------10---||--------------|
B---10----------10----------|--3-----7----||-----3-----3--|
G-----------11--------<12>--|--------7---*||-----4-----4--|
D---------------------------|--4-----0---*||--5-----0-----|
A---0--------------<12>-----|-------------||--------------|
D---------------------------|--0----------||--5-----0-----|


E---------------------|-----2-----2--|--------3--3--------|
B------3--3-----------|-----3-----3--|--------3--3--------|
G------5--5-----2--4--|--5-----5-----|-----5--4--4--------|
D---4--------5--------|--------0-----|--------------------|
A---0-----------------|--------------|--------------------|
D---------------------|--0-----------|--5-----------------|


E---7s10-----10s15-----|--14p12--------------0--|
B---------0---------0--|---------13-------------|
G---0---------------0--|-------------14--11-----|
D------------0---------|------------------------|
A----------------------|--0---------------------|
D----------------------|------------------------|


E---5s8-----8s14------|--12p10--7-----------|--------------|
B--------7--------13--|------------8--------|-----3-----3--|
G--------7--------14--|--0------------9--7--|-----4-----4--|
D---0-------0---------|---------------------|--5-----0-----|
A---------------------|---------------------|--------------|
D---------------------|---------------------|--5-----0-----|


E---------------------|-----2-----2--|-----3--3--------|
B------3--3-----------|-----3-----3--|-----3--3--------|
G------5--5-----2--4--|--5-----5-----|--5--4--4--------|
D---4--------5--------|--------0-----|-----------------|
A---0-----------------|--------------|-----------------|
D---------------------|--0-----------|--5--------------|


E-----7--------10--|-----8------------5--|--3-----2-----|-3---------||
B-----8--6---------|-----10--------5-----|-----3-----1--|-0---------||
G--7--------7------|--9---------5--------|-----4-----2--|-0---------||
D--------6---------|--7------------------|--0-----0-----|----0------||
A------------------|---------3-----------|--------------|-----------||
D--5---------------|---------------------|--------------|----------5||


Categories of Classical/Electric Guitar Tabs