Classical Music Tabs for Classical Guitar

La Catedral, Allegro Solemne

Composer:  Agustin Barrios Mangore

Status on the Original Works: Public Domain

Type: For Classical Guitar

Refer to the Video

In this category, very difficult music is exhibited among lots of classical guitar music.

They are so difficult that your fingers may shriek out of pain. These music are difficult to fully play throughout rather than they are partially difficult.

They shine in stages and audience love them, thus they are popular among classical guitarists.




E|-------------------------|-----------------------------|
B|-----------------3-------|-----------------3-----------|
G|---------0---4-------4---|---------0---4-------4-------|
D|---4-3h4---4---4---4---4-|---4-3h4---4---4---4---4-----|
A|-2-----------------------|-2---------------------------|
E|-------------------------|-----------------------------|


|-------------------------|-----------------------------|
|-----------------3-------|-----------------3-----------|
|---------2---4-------4---|---------2---4-------4-------|
|---5-4h5---5---5---5---5-|---5-4h5---5---5---5---5-----|
|-2-----------------------|-2---------------------------|
|-------------------------|-----------------------------|


|-------------------------|-----------------------------|
|-----------------5-------|-----------------5-----------|
|---------4---6-------6---|---------4---6-------6-------|
|---7-6h7---7---7---7---7-|---7-6h7---7---7---7---7-----|
|-4-----------------------|-4---------------------------|
|-------------------------|-----------------------------|
 

|-------------------------|-----------------------------|
|---------7-----------5---|---------3-----------2-------|
|-------------------------|-----------------------------|
|---7-6h7---7---5-4h5---5-|---4-3h4---4---2-1h2---2-----|
|-5-----------4-----------|-2---------------------------|
|-------------------------|-------------0---------------|
 

|-------------------------|-----------------------------|
|---------0---------------|-------------2---------------|
|---------------------0---|-0---0---0-----3---0---------|
|---3-2h3---3---4-3h4---4-|---4---4---4-----4---2-------|
|-------------------------|-----------------------4-----|
|-1-----------2-----------|-----------------------------|
   
     
|-------------------------|-----------------------------|
|-----------------3-------|-----------------3-----------|
|---------0---4-------4---|---------0---4-------4-------|
|---4-3h4---4---4---4---4-|---4-3h4---4---4---4---4-----|
|-2-----------------------|-2---------------------------|
|-------------------------|-----------------------------|
  

|-------------------------|-----------------------------|
|-----------------3-------|-----------------3-----------|
|---------2---4-------4---|---------2---4-------4-------|
|---5-4h5---5---5---5---5-|---5-4h5---5---5---5---5-----|
|-2-----------------------|-2---------------------------|
|-------------------------|-----------------------------|
 

|-------------------------|-----------------------------|
|-----------------5-------|-----------------5-----------|
|---------4---6-------6---|---------4---6-------6-------|
|---7-6h7---7---7---7---7-|---7-6h7---7---7---7---7-----|
|-4-----------------------|-4---------------------------|
|-------------------------|-----------------------------|
   

|-------------------------|-----------------------------|
|---------7-----------5---|---------3-----------2-------|
|-------------------------|-----------------------------|
|---7-6h7---7---5-4h5---5-|---4-3h4---4---2-1h2---2-----|
|-5-----------4-----------|-2---------------------------|
|-------------------------|-------------0---------------|
  

|-------------------------|-----------------------------|
|---------0-----------0---|-----------------0h2h3h5-----|
|-----------------------3-|-4---------------------------|
|---3-2h3---3-------------|---4-----------4-------------|
|---------------4-3h4-----|-----5-------5---------------|
|-1-----------2-----------|-------7-6h7-----------------|
 

|-2-------2---0-------0---|-----------------------------|
|---3-------3---2-------2-|-3---------------------------|
|-----4-----------3-------|---4-------------------------|
|-------4-----------4-----|-----5-------------0h2h3-----|
|-------------------------|-------------0h2h4-----------|
|-------------------------|-------0h2h3-----------------|
  

|-------0-2h5-3p2-0-------|-------0-----------5---------|
|-----3-------------3-2p0-|-----0-----------0-----8-----|
|---4---------------------|---6-------6---6-------------|
|-4-----------------------|-7-------5-------------------|
|-------------------------|-------------7-------8-------|
|-------------------------|-----------------------------|
  

|-------------0-----------|-----10p9-7--------0---------|
|-------6-7h8---2---------|---0--------10-8p7---3-2p0---|
|-----6-----------3p0-----|-----------------------------|
|---8-----------------4p2-|-0---------------------------|
|-9-----------------------|-----------------------------|
|-------------------------|-----------------------------|
 

|--------------------------|----------------------------|
|-----10-----------8-------|-----7---8p7----------------|
|--------9-----------7-----|-------7-----9-7-6-----0----|
|---7--------7---5-------5-|---0---------------9-7------|
|--------------------------|-0--------------------------|
|-9--------9---7-------7---|----------------------------|
 

|-------------------------|-----------2----------------||
|-------------------------|---------3---3--------------||
|-------------------------|-------2--------------------||
|-4p0---0-4p0-------------|-----4----------------------||
|-----0-------7p4-0h4-7p4-|-0h5------------------------||
|-------------------------|----------------------------||


||--------------------------|---------------------------|
||------7-----------7-------|-----7-----------7---------|
||x-------------------------|---------------------------|
||x---4---4---4---4---4---4-|---4---4---4---4---4---4---|
||--5-------4---5-----------|-5-------4---5-------------|
||----------------------7---|---------------------7-----|
 

|-------------------------|-----------------------------|
|-----5-----------5-------|-----5-----------5-----------|
|-------------------------|-----------------------------|
|---2---2---2---2---2---2-|---2---2---2---2---2---2-----|
|-4-------2---4-----------|-4-------2---4---------------|
|---------------------5---|---------------------5-------|
  

|-------------------------|-----------------------------|
|-----3-----------3-------|-----3-----------3-----------|
|-------------------------|-----------------------------|
|---0---0---0---0---0---0-|---0---0---0---0---0---0-----|
|-2-------0---2-----------|-2-------0---2---------------|
|---------------------3---|---------------------3-------|


|-------------------------|-----------------------------|
|-----2-----------2-------|-----2-----------2-----------|
|-------------------------|-----------------------------|
|-------------------------|-----------------------------|
|---4---4---4---4---4---4-|---4---4---4---4---4---4-----|
|-5-------3---5-------2---|-5-------3---5-------2-------|
  

|-------------------------|-----------------------------|
|-----0-----------0-------|-----0-----------0-----------|
|-------------------------|-----------------------------|
|-------------------------|-----------------------------|
|---2---2---2---2---2---2-|---2---2---2---2---2---2-----|
|-3-------2---3-------0---|-3-------2---3-------1-------|
  

|-------------------------|-----------------------------|
|-----------------2-------|-----5-----------8-----------|
|-----3-------------------|-----------------------------|
|---------------2---2---2-|---5---5---5---9---9---9-----|
|---4---4---4-1-------1---|-4-------4---8-------8-------|
|-2-------2---------------|-----------------------------|
 

|-----2-----------2-------|-----2-----------2----------||
|-------------------------|----------------------------||
|---3---3---3---3---3---3-|---3---3---3---3---3---3---x||
|-4-----------2-----------|---------------------------x||
|-------------------------|-5-----------4--------------||
|---------2-----------2---|---------2-----------2------||

 


E|-------------------------|-----------------------------|
B|-----------------3-------|-----------------3-----------|
G|---------0---4-------4---|---------0---4-------4-------|
D|---4-3h4---4---4---4---4-|---4-3h4---4---4---4---4-----|
A|-2-----------------------|-2---------------------------|
E|-------------------------|-----------------------------|


|-------------------------|-----------------------------|
|-----------------3-------|-----------------3-----------|
|---------2---4-------4---|---------2---4-------4-------|
|---5-4h5---5---5---5---5-|---5-4h5---5---5---5---5-----|
|-2-----------------------|-2---------------------------|
|-------------------------|-----------------------------|


|-------------------------|-----------------------------|
|-----------------5-------|-----------------5-----------|
|---------4---6-------6---|---------4---6-------6-------|
|---7-6h7---7---7---7---7-|---7-6h7---7---7---7---7-----|
|-4-----------------------|-4---------------------------|
|-------------------------|-----------------------------|
 

|-------------------------|-----------------------------|
|---------7-----------5---|---------3-----------2-------|
|-------------------------|-----------------------------|
|---7-6h7---7---5-4h5---5-|---4-3h4---4---2-1h2---2-----|
|-5-----------4-----------|-2---------------------------|
|-------------------------|-------------0---------------|
 

|-------------------------|-----------------------------|
|---------0---------------|-------------2---------------|
|---------------------0---|-0---0---0-----3---0---------|
|---3-2h3---3---4-3h4---4-|---4---4---4-----4---2-------|
|-------------------------|-----------------------4-----|
|-1-----------2-----------|-----------------------------|
   
     
|-------------------------|-----------------------------|
|-----------------3-------|-----------------3-----------|
|---------0---4-------4---|---------0---4-------4-------|
|---4-3h4---4---4---4---4-|---4-3h4---4---4---4---4-----|
|-2-----------------------|-2---------------------------|
|-------------------------|-----------------------------|
  

|-------------------------|-----------------------------|
|-----------------3-------|-----------------3-----------|
|---------2---4-------4---|---------2---4-------4-------|
|---5-4h5---5---5---5---5-|---5-4h5---5---5---5---5-----|
|-2-----------------------|-2---------------------------|
|-------------------------|-----------------------------|
 

|-------------------------|-----------------------------|
|-----------------5-------|-----------------5-----------|
|---------4---6-------6---|---------4---6-------6-------|
|---7-6h7---7---7---7---7-|---7-6h7---7---7---7---7-----|
|-4-----------------------|-4---------------------------|
|-------------------------|-----------------------------|
   

|-------------------------|-----------------------------|
|---------7-----------5---|---------3-----------2-------|
|-------------------------|-----------------------------|
|---7-6h7---7---5-4h5---5-|---4-3h4---4---2-1h2---2-----|
|-5-----------4-----------|-2---------------------------|
|-------------------------|-------------0---------------|
  

|-------------------------|-----------------------------|
|---------0-----------0---|-----------------0h2h3h5-----|
|-----------------------3-|-4---------------------------|
|---3-2h3---3-------------|---4-----------4-------------|
|---------------4-3h4-----|-----5-------5---------------|
|-1-----------2-----------|-------7-6h7-----------------|
 

|-2-------2---0-------0---|-----------------------------|
|---3-------3---2-------2-|-3---------------------------|
|-----4-----------3-------|---4-------------------------|
|-------4-----------4-----|-----5-------------0h2h3-----|
|-------------------------|-------------0h2h4-----------|
|-------------------------|-------0h2h3-----------------|
  

|-------0-2h5-3p2-0-------|-------0-----------5---------|
|-----3-------------3-2p0-|-----0-----------0-----8-----|
|---4---------------------|---6-------6---6-------------|
|-4-----------------------|-7-------5-------------------|
|-------------------------|-------------7-------8-------|
|-------------------------|-----------------------------|
  

|-------------0-----------|-----10p9-7--------0---------|
|-------6-7h8---2---------|---0--------10-8p7---3-2p0---|
|-----6-----------3p0-----|-----------------------------|
|---8-----------------4p2-|-0---------------------------|
|-9-----------------------|-----------------------------|
|-------------------------|-----------------------------|
 

|-------------------------|----------------------------||
|-------------------------|----------------------------||
|-----7p6-6-------4p3-3---|-4-----------4--------------||
|-----------5-----------2-|---4-------4----------------||
|---7-----------4---------|-----5---5------------------||
|-0-----------2-----------|-------7--------------------||


|-6/7-9p7-10p7-------------|----------------------------|
|--------------8p6---0---0-|-2p0-3p2--------------------|
|------------------7-------|---------4p2-0-------0------|
|----------------------8---|---------------3-------4----|
|--------------------------|-----------------5p2--------|
|--------------------------|----------------------------|


|---------------------2p0-|-3p2-0---------------6h9-----|
|-------------------3-----|-------3-2p0-----6h7---------|
|-0-------0-------4-------|---------------6-------------|
|---3-------4-3h4---------|-------------8---------------|
|-----5p2-----------------|-----------------------------|
|-------------------------|-----------------------------|


|-10p9-7---------------4h7-|-6h7-6-------6/7-9p7-10p7---|
|--------7-----------6-----|-------9-7h9----------------|
|----------9p7-----4-------|----------------------------|
|----------------6---------|----------------------------|
|--------------4-----------|----------------------------|
|--------------------------|----------------------------|


|-------------------------|-----------------------------|
|-8p6---0---0-2p0-3p2-----|-----------------------------|
|-----7---------------4p2-|-0-------0---0-------0-------|
|---------8---------------|---3-------4---3-------4-----|
|-------------------------|-----5p2---------5p2---------|
|-------------------------|-----------------------------|


|---------2p0-3p2-0-------|---------6h9-10p9-7----------|
|-------3-----------3-2p0-|-----6h7------------7--------|
|-----4-------------------|---6------------------9p7----|
|-3h4---------------------|-8---------------------------|
|-------------------------|-----------------------------|
|-------------------------|-----------------------------|


|---------4h7-9p7----0-----|---------2h5-7h10---7-0h2---|
|-----4h5---------10---3p2-|-----2h3----------8---------|
|---4----------------------|---2------------------------|
|-6------------------------|-4--------------------------|
|--------------------------|----------------------------|
|--------------------------|----------------------------|


|-3p2-0-------------------|-----------------------------|
|-------3-2p0---5---2---0-|-----------------------------|
|-------------6---4---0---|-----------------------------|
|-------------------------|-2h4-2p0-------4-3h4-4-4-----|
|-------------------------|---------4p2-----------------|
|-------------------------|-------------2---------------|


|-------------------------|----------------------------||
|-------------------------|----------------------------||
|-------------------------|----------------------------||
|---4-3h4-4-4---4-3h4-4-4-|---4-3h4-4-4---4-3h4-4-4----||
|-------------------------|-0-----------1--------------||
|-3-----------4-----------|----------------------------||

 

|-------------------------|-----------------------------|
|-----------------3-------|-----------------3-----------|
|---------0---4-------4---|---------0---4-------4-------|
|---4-3h4---4---4---4---4-|---4-3h4---4---4---4---4-----|
|-2-----------------------|-2---------------------------|
|-------------------------|-----------------------------|


|-------------------------|-----------------------------|
|-----------------3-------|-----------------3-----------|
|---------2---4-------4---|---------2---4-------4-------|
|---5-4h5---5---5---5---5-|---5-4h5---5---5---5---5-----|
|-2-----------------------|-2---------------------------|
|-------------------------|-----------------------------|


|-------------------------|-----------------------------|
|-----------------5-------|-----------------5-----------|
|---------4---6-------6---|---------4---6-------6-------|
|---7-6h7---7---7---7---7-|---7-6h7---7---7---7---7-----|
|-4-----------------------|-4---------------------------|
|-------------------------|-----------------------------|
 

|-------------------------|-----------------------------|
|---------7-----------5---|---------3-----------2-------|
|-------------------------|-----------------------------|
|---7-6h7---7---5-4h5---5-|---4-3h4---4---2-1h2---2-----|
|-5-----------4-----------|-2---------------------------|
|-------------------------|-------------0---------------|
 

|-------------------------|-----------------------------|
|---------0---------------|-------------2---------------|
|---------------------0---|-0---0---0-----3---0---------|
|---3-2h3---3---4-3h4---4-|---4---4---4-----4---2-------|
|-------------------------|-----------------------4-----|
|-1-----------2-----------|-----------------------------|
   
     
|-------------------------|-----------------------------|
|-----------------3-------|-----------------3-----------|
|---------0---4-------4---|---------0---4-------4-------|
|---4-3h4---4---4---4---4-|---4-3h4---4---4---4---4-----|
|-2-----------------------|-2---------------------------|
|-------------------------|-----------------------------|
  

|-------------------------|-----------------------------|
|-----------------3-------|-----------------3-----------|
|---------2---4-------4---|---------2---4-------4-------|
|---5-4h5---5---5---5---5-|---5-4h5---5---5---5---5-----|
|-2-----------------------|-2---------------------------|
|-------------------------|-----------------------------|
 

|-------------------------|-----------------------------|
|-----------------5-------|-----------------5-----------|
|---------4---6-------6---|---------4---6-------6-------|
|---7-6h7---7---7---7---7-|---7-6h7---7---7---7---7-----|
|-4-----------------------|-4---------------------------|
|-------------------------|-----------------------------|
   

|-------------------------|-----------------------------|
|---------7-----------5---|---------3-----------2-------|
|-------------------------|-----------------------------|
|---7-6h7---7---5-4h5---5-|---4-3h4---4---2-1h2---2-----|
|-5-----------4-----------|-2---------------------------|
|-------------------------|-------------0---------------|
  

|-------------------------|-----------------------------|
|---------0-----------0---|-----------------0h2h3h5-----|
|-----------------------3-|-4---------------------------|
|---3-2h3---3-------------|---4-----------4-------------|
|---------------4-3h4-----|-----5-------5---------------|
|-1-----------2-----------|-------7-6h7-----------------|
 

|-2-------2---0-------0---|-----------------------------|
|---3-------3---2-------2-|-3---------------------------|
|-----4-----------3-------|---4-------------------------|
|-------4-----------4-----|-----5-------------0h2h3-----|
|-------------------------|-------------0h2h4-----------|
|-------------------------|-------0h2h3-----------------|
  

|-------0-2h5-3p2-0-------|-------0-----------5---------|
|-----3-------------3-2p0-|-----0-----------0-----8-----|
|---4---------------------|---6-------6---6-------------|
|-4-----------------------|-7-------5-------------------|
|-------------------------|-------------7-------8-------|
|-------------------------|-----------------------------|
  

|-------------0-----------|-----10p9-7--------0---------|
|-------6-7h8---2---------|---0--------10-8p7---3-2p0---|
|-----6-----------3p0-----|-----------------------------|
|---8-----------------4p2-|-0---------------------------|
|-9-----------------------|-----------------------------|
|-------------------------|-----------------------------|
 

|--------------------------||---------------------------|
|--------------------------||------0-----------0--------|
|------7p6-6-------4p3-3---||x--------------------------|
|------------5-----------2-||x---0---0---0---1---1---1--|
|---7------------4---------||--2-------2---0-------0----|
|-0------------2-----------||---------------------------|


|-------------------------|----------------------------||
|-----0-----------0-------|-----3-----------2----------||
|-------------------------|-------4---4-------3---3---x||
|---2---2---2---3---3---3-|---4-----4-----2-----2-----x||
|-------------------------|----------------------------||
|-4-------4---3-------3---|-2-----------2--------------||

                           
|-------------------------|-------------7---------------|
|-------------------------|-7-------------7-------------|
|-4-----------7-----------|---7-------7-----7------11---|
|---4-------4---9-------9-|-----9---9---------9-12------|
|-----5---5-------9---9---|-------9---------------------|
|-------7-----------7-----|-----------------------------|


|-10-------------------14-------14-19-|-19-----7--------|
|----12----------12-15-------15-------|-15-----7--------|
|-------11----11----------16----------|-16-----7--------|
|----------12-------------------------|--------9--------|
|-------------------------------------|-----------------|
|-------------------------------------|-----------------|


|-------------||
|-------------||
|-4-----------||
|-4-----------||
|-5-----------||
|-7-----------||