Classical Guitar Tabs (Easy/Standard)

Scarlatti's Sonata K011(L352)

Composer: Domenico Scarlatti

Status on the Original Work: Public Domain

Type: For Classical Guitar

Refer to the Video

Here, classical guitar masterpieces are exhibited for the people, who are not satisfied with music for beginners. Features of the music in this category are as follows:

  • It is difficult to copy with ears because the structure of the music is complex and it is hard to think of fitting into a framework of a simple music theory.
  • It is somewhat difficult because their tonality is not always suitable for guitar (you cannot play them only based on open codes).
  • Maintenance of tempo and rhythm is likely to be hindered by technical difficulties.



Classical Guitar Tab

E||-------------------0--------2--|---3--5--7--0--------------|
B||---0--4h5p4--2--4--0-----------|---0-----------4--2--0-----|
G||x--0--2------------0--2--0-----|---------------4--------2--|
D||x--2--4---------------4--2--1--|---2--4--5--7--------4-----|
A||-------------------------------|---------------2--4-----2--|
E||-------------------------------|---------------------------|
        

|-----------------------2--|---3--5--7--0--------------|
|--------------------------|---0-----------4--2--0--7--|
|--0--2--4-----------------|---------------4--------8--|
|--2--------2--1--------1--|---2--4--5--7--------------|
|-----------0--2--4--2-----|---------------2-----------|
|--0--2--3-----------------|---------------------------|


|7-----5-----3--------2--------2-|--7-----5-----3--------2--------2-|
|8-----7-----5--4--2--4--0--4----|--8-----7-----5--4--2--4--0--4----|
|---0-----0----------------------|-----0-----0----------------------|
|--------------------------------|----------------------------------|
|--------------------------------|----------------------------------|
|--------------------------------|----------------------------------|


|8------7--------------------------|8------7--------------------------
|10-----8-----10--------8----------|10-----8-----10--------8----------
|----0-----0--11--9--8--9--8--9--11|----0-----0--11--9--8--9--8--9--11
|----------------------------------|----------------------------------
|----------------------------------|----------------------------------
|----------------------------------|----------------------------------


|-12------10-----9-----7-----6-----4-----2-----0-----|
|----------------------------------------------------|
|-12--11--9---7--9--7--6--4--6--4--3--1--3-----1--3--|
|-------------------------------------------4--------|
|----------------------------------------------------|
|----------------------------------------------------|


|--------------2--0----------------------------|
|--3--------3--------3h5p3--2--0--2h3p2--------|
|--4-----4--------0----------------------4--3--|
|-----4--------------4------------2------------|
|----------------------------------------------|
|----------------------------------------------|


|--------------2--0----------------------------|
|--0--------3--------3h5p3--2--0--2h3p2--------|
|--------4--------0----------------------4--3--|
|--0--4--------------4------------2------------|
|----------------------------------------------|
|----------------------------------------------|


|--2--------2--7--0----------------------------|
|--------3--------2--3h5p3--2-----2h3p2--------|
|-----4-----------0------------4---------4--3--|
|--0-----------------4------------2------------|
|----------------------------------------------|
|-----------------0--2------------2------------|


|-----7--5------------------------------------------|
|--0--------8--7--5--------0------------------------|
|--------------------8--6---------------------------|
|-----------------------------9--7------------------|
|-----------------------------------10--9--7--6--4--|
|--7------------------------------------------------|


|--------------------------7---||
|--------------------------7---||
|--------------------------8--x||
|-----4--6--8--9-----------9--x||
|-----------------6--7--9--9---||
|--7-----------------------7---||


E||----------------------------------|-------------------------------|
B||--4--5--7--5--4--5--7--7--------8-|10--8-----7--8h10p8--7--8-----0|
G||x----------------------------0--9-|11--9-----8--9-------------9---|
D||x---------------------------------|-------------------------------|
A||--2--4-----------------6-----7----|0------------------------------|
E||--------------------------7-------|-------7-----0-----------------|


|--------------2-----0--------|--2-----3--2--0--7--------7--|
|-10-----8-----2--------------|--------------------------0--|
|--------9--0-----------------|-----------------8-----------|
|-10--7-----------4--5--4--2--|--1-----1-----------9--9-----|
|-----------------------------|-----2-----------------------|
|-----------------------------|-----------------7-----------|


|5--3--2--3--2--0--2--0-----0--2--3-|-2--3--5--3--5--3--2--3--2-----3|
|4--------5--------1-----3--0-------|-0-----------------------0------|
|5--------4--------2--------0-------|----------4---------------------|
|-----------------------------------|-1--------2---------------------|
|-----------------------------------|--------------------------------|
|-----------------------------------|--------------------------------|


|8------7-----5-------------------|-8------7-----5-------------------|
|10-----8-----7--------8--------8-|-10-----8-----7--------8----------|
|----0-----0-----9--8--9-----9----|-----0-----0-----9--8--9--7-------|
|-------------------------9-------|-----------------------------10--9|
|---------------------------------|----------------------------------|
|---------------------------------|----------------------------------|


|---------------------------------------------------|
|--10-----8-----7-----5-----4-----2-----0-----------|
|---------------------------------------------2-----|
|--10--9--7--5--7--5--4--2--4--2--1-----1-----------|
|------------------------------------4-----2--4--2--|
|---------------------------------------------------|


|----------------------------------------------|
|--------------0-------------------------------|
|--0--------0-----2--0h2p0--------0h2p0--2--1--|
|--2-----2------------------4--2---------------|
|-----2-----------3--2------------0------------|
|----------------------------------------------|


|--------0--3--7--5--3h5p3--2--0--2h3p2--------|
|-----0-----------7--4------------4------5--4--|
|-----------------5--2------------2------------|
|--2-------------------------------------------|
|----------------------------------------------|
|--3-------------------------------------------|


|--7--------7--12-----------------------------------|
|--------8---------10--8h10p8--7------7h8p7---------|
|--0--9------------11--9----------9---------9--8----|
|------------------10-----------------7-------------|
|------------------0--------------------------------|
|----------------------7--------------7-------------|


|--0--12--10--------------------0------------------------|
|--0----------13--12--10--8--7---------------------------|
|--0-------------------------------9--7------------0-----|
|----------------------------------------10--9--7-----4--|
|--------------------------------------------------------|
|--0-----------------------------------------------------|


|-------------------------<12>--||
|-------------------------<12>--||
|-------------------------<12>-x||
|--2--------1--2---------------x||
|-----2--4--------------2-------||
|-----------------3--5----<12>--||

Categories